1 = index 
2 = middle
3 = ring
4 = pinkie

Guitar 1:
e|-18p15----------15-18p15----------15-17p13----------13-17p13----------13---|
B|------15------15--------15------15--------15------15--------15------15-----|
G|--------15--15------------15--15------------14--14------------14--14-------|
D|----------17----------------17----------------15----------------15---------|
A|---------------------------------------------------------------------------|
D|---------------------------------------------------------------------------|
    3 1 1 1 2 1 1 1  3  1 1 1 2 1 1 1  4  1 2 1 2 1 2 1  4  1 2 1 2 1 2 1

Guitar 1:
e|-----------------------------------------------------------------18-13-----|
B|-17p14----------14-17p14----------17-18p15----------15-18p15----------15---|
G|------14------14--------14------14--------15------15--------15----------15-|
D|--------14--14------------14--14------------15--15------------15-----------|
A|----------16----------------16----------------17---------------------------|
D|---------------------------------------------------------------------------|
   3  1 1 1 2 1 1 1  3  1 1 1 2  1 1 2  3  1 1 1 2 1 1 1  3  1 1 1  4 1 2 2

Guitar 1:
e|-18p15----------15-18p15----------15-17p13----------13-17p13----------13-|
B|------15------15--------15------15--------15------15--------15------15---|
G|--------15--15------------15--15------------14--14------------14--14-----|
D|----------17----------------17----------------15----------------15-------|
A|-------------------------------------------------------------------------|
D|-------------------------------------------------------------------------|
   3  1 1 1 2 1 1 1  3  1 1 1 2  1 1 1  4  1 2 1 2 1 2 1  4 1  2 1 2 1 2 1    

Guitar 1:
e|-------------------------------------|
B|-17p14----------14-17p14----------14-|
G|------14------14--------14------14---|
D|--------14--14------------14--14-----|
A|----------16----------------16-------|
D|-------------------------------------|
   3  1  1 1 2 1 1 1  2 1 1 1 2  1 1 1
This entry was posted in Uncategorized. Bookmark the permalink.

Leave a Reply

Fill in your details below or click an icon to log in:

WordPress.com Logo

You are commenting using your WordPress.com account. Log Out / Change )

Twitter picture

You are commenting using your Twitter account. Log Out / Change )

Facebook photo

You are commenting using your Facebook account. Log Out / Change )

Google+ photo

You are commenting using your Google+ account. Log Out / Change )

Connecting to %s